ISO-10303-21;
HEADER;
FILE_DESCRIPTION (( 'STEP AP203' ),
    '1' );
FILE_NAME ('Q-AZHWP-25.4-1064-M.STEP',
    '2020-12-22T09:09:41',
    ( '' ),
    ( '' ),
    'SwSTEP 2.0',
    'SolidWorks 2020',
    '' );
FILE_SCHEMA (( 'CONFIG_CONTROL_DESIGN' ));
ENDSEC;

DATA;
#1 = ORIENTED_EDGE ( 'NONE', *, *, #145, .T. ) ;
#2 = VECTOR ( 'NONE', #54, 1000.000000000000000 ) ;
#3 = DIRECTION ( 'NONE',  ( 1.000000000000000000, 0.000000000000000000, 0.000000000000000000 ) ) ;
#4 = ADVANCED_FACE ( 'NONE', ( #105 ), #43, .F. ) ;
#5 = DIRECTION ( 'NONE',  ( 0.000000000000000000, 0.000000000000000000, 1.000000000000000000 ) ) ;
#6 = VERTEX_POINT ( 'NONE', #101 ) ;
#7 = VERTEX_POINT ( 'NONE', #146 ) ;
#8 = DIRECTION ( 'NONE',  ( 0.000000000000000000, 0.000000000000000000, 1.000000000000000000 ) ) ;
#9 = DIRECTION ( 'NONE',  ( 0.000000000000000000, 0.000000000000000000, 1.000000000000000000 ) ) ;
#10 = APPLICATION_PROTOCOL_DEFINITION ( 'international standard', 'config_control_design', 1994, #22 ) ;
#11 = COORDINATED_UNIVERSAL_TIME_OFFSET ( 8, 0, .AHEAD. ) ;
#12 = CALENDAR_DATE ( 2020, 22, 12 ) ;
#13 = PERSON_AND_ORGANIZATION ( #85, #28 ) ;
#14 = DIRECTION ( 'NONE',  ( -1.000000000000000000, -0.000000000000000000, -0.000000000000000000 ) ) ;
#15 =( NAMED_UNIT ( * ) PLANE_ANGLE_UNIT ( ) SI_UNIT ( $, .RADIAN. ) );
#16 = EDGE_CURVE ( 'NONE', #7, #6, #30, .T. ) ;
#17 = CARTESIAN_POINT ( 'NONE',  ( 3.000000000000000000, 0.000000000000000000, 0.000000000000000000 ) ) ;
#18 = ORIENTED_EDGE ( 'NONE', *, *, #172, .F. ) ;
#19 = VERTEX_POINT ( 'NONE', #165 ) ;
#20 = CC_DESIGN_PERSON_AND_ORGANIZATION_ASSIGNMENT ( #122, #46, ( #89 ) ) ;
#21 = DIRECTION ( 'NONE',  ( -1.000000000000000000, 0.000000000000000000, -0.000000000000000000 ) ) ;
#22 = APPLICATION_CONTEXT ( 'configuration controlled 3d designs of mechanical parts and assemblies' ) ;
#23 = CALENDAR_DATE ( 2020, 22, 12 ) ;
#24 = DATE_AND_TIME ( #110, #58 ) ;
#25 = CC_DESIGN_PERSON_AND_ORGANIZATION_ASSIGNMENT ( #174, #168, ( #96 ) ) ;
#26 = APPROVAL_PERSON_ORGANIZATION ( #47, #126, #170 ) ;
#27 = EDGE_CURVE ( 'NONE', #19, #7, #127, .T. ) ;
#28 = ORGANIZATION ( 'UNSPECIFIED', 'UNSPECIFIED', '' ) ;
#29 = ORIENTED_EDGE ( 'NONE', *, *, #142, .T. ) ;
#30 = LINE ( 'NONE', #74, #2 ) ;
#31 = ORIENTED_EDGE ( 'NONE', *, *, #172, .T. ) ;
#32 = DIRECTION ( 'NONE',  ( -0.000000000000000000, 0.000000000000000000, 1.000000000000000000 ) ) ;
#33 = APPROVAL_STATUS ( 'not_yet_approved' ) ;
#34 = MECHANICAL_CONTEXT ( 'NONE', #44, 'mechanical' ) ;
#35 = CLOSED_SHELL ( 'NONE', ( #98, #4, #109, #50 ) ) ;
#36 = APPROVAL_ROLE ( '' ) ;
#37 = COORDINATED_UNIVERSAL_TIME_OFFSET ( 8, 0, .AHEAD. ) ;
#38 = DIRECTION ( 'NONE',  ( -1.000000000000000000, -0.000000000000000000, -0.000000000000000000 ) ) ;
#39 = ADVANCED_BREP_SHAPE_REPRESENTATION ( 'Q-AZHWP-25.4-1064-M', ( #130, #108 ), #141 ) ;
#40 = CARTESIAN_POINT ( 'NONE',  ( -1.614212418857619014, 0.000000000000000000, 15.00000000000000000 ) ) ;
#41 = DIRECTION ( 'NONE',  ( 0.000000000000000000, 0.000000000000000000, -1.000000000000000000 ) ) ;
#42 = ORIENTED_EDGE ( 'NONE', *, *, #128, .T. ) ;
#43 = PLANE ( 'NONE',  #99 ) ;
#44 = APPLICATION_CONTEXT ( 'configuration controlled 3d designs of mechanical parts and assemblies' ) ;
#45 = COORDINATED_UNIVERSAL_TIME_OFFSET ( 8, 0, .AHEAD. ) ;
#46 = PERSON_AND_ORGANIZATION_ROLE ( 'creator' ) ;
#47 = PERSON_AND_ORGANIZATION ( #85, #28 ) ;
#48 = DATE_TIME_ROLE ( 'creation_date' ) ;
#49 = APPROVAL ( #33, 'UNSPECIFIED' ) ;
#50 = ADVANCED_FACE ( 'NONE', ( #149 ), #55, .F. ) ;
#51 = APPROVAL_PERSON_ORGANIZATION ( #13, #49, #173 ) ;
#52 = CC_DESIGN_SECURITY_CLASSIFICATION ( #175, ( #89 ) ) ;
#53 = CARTESIAN_POINT ( 'NONE',  ( -3.000000000000000000, 0.000000000000000000, 0.000000000000000000 ) ) ;
#54 = DIRECTION ( 'NONE',  ( -1.000000000000000000, -0.000000000000000000, -0.000000000000000000 ) ) ;
#55 = PLANE ( 'NONE',  #107 ) ;
#56 = PERSON_AND_ORGANIZATION ( #85, #28 ) ;
#57 = DIRECTION ( 'NONE',  ( 0.000000000000000000, 0.000000000000000000, 1.000000000000000000 ) ) ;
#58 = LOCAL_TIME ( 17, 9, 41.00000000000000000, #139 ) ;
#59 = APPROVAL_DATE_TIME ( #152, #159 ) ;
#60 = DATE_AND_TIME ( #81, #61 ) ;
#61 = LOCAL_TIME ( 17, 9, 41.00000000000000000, #11 ) ;
#62 = PRODUCT_DEFINITION_SHAPE ( 'NONE', 'NONE',  #96 ) ;
#63 = DIRECTION ( 'NONE',  ( 0.000000000000000000, 0.000000000000000000, 1.000000000000000000 ) ) ;
#64 = ORIENTED_EDGE ( 'NONE', *, *, #142, .F. ) ;
#65 = ORIENTED_EDGE ( 'NONE', *, *, #27, .T. ) ;
#66 = ORIENTED_EDGE ( 'NONE', *, *, #128, .F. ) ;
#67 = DIRECTION ( 'NONE',  ( 1.000000000000000000, 0.000000000000000000, 0.000000000000000000 ) ) ;
#68 = APPROVAL_DATE_TIME ( #137, #126 ) ;
#69 = CC_DESIGN_PERSON_AND_ORGANIZATION_ASSIGNMENT ( #56, #106, ( #143 ) ) ;
#70 = PERSON_AND_ORGANIZATION ( #85, #28 ) ;
#71 = COORDINATED_UNIVERSAL_TIME_OFFSET ( 8, 0, .AHEAD. ) ;
#72 = CYLINDRICAL_SURFACE ( 'NONE', #153, 15.00000000000000000 ) ;
#73 = LOCAL_TIME ( 17, 9, 41.00000000000000000, #37 ) ;
#74 = CARTESIAN_POINT ( 'NONE',  ( -1.614212418857619014, 1.836970198721029589E-15, -15.00000000000000000 ) ) ;
#75 = APPLICATION_PROTOCOL_DEFINITION ( 'international standard', 'config_control_design', 1994, #44 ) ;
#76 = DESIGN_CONTEXT ( 'detailed design', #22, 'design' ) ;
#77 = CARTESIAN_POINT ( 'NONE',  ( -1.614212418857619014, 0.000000000000000000, 0.000000000000000000 ) ) ;
#78 = CYLINDRICAL_SURFACE ( 'NONE', #95, 15.00000000000000000 ) ;
#79 = AXIS2_PLACEMENT_3D ( 'NONE', #53, #14, #113 ) ;
#80 = LOCAL_TIME ( 17, 9, 41.00000000000000000, #71 ) ;
#81 = CALENDAR_DATE ( 2020, 22, 12 ) ;
#82 = DATE_AND_TIME ( #12, #73 ) ;
#83 = APPROVAL_STATUS ( 'not_yet_approved' ) ;
#84 = APPROVAL_STATUS ( 'not_yet_approved' ) ;
#85 = PERSON ( 'UNSPECIFIED', 'UNSPECIFIED', 'UNSPECIFIED', ('UNSPECIFIED'), ('UNSPECIFIED'), ('UNSPECIFIED') ) ;
#86 = VERTEX_POINT ( 'NONE', #116 ) ;
#87 = FACE_OUTER_BOUND ( 'NONE', #134, .T. ) ;
#88 = CARTESIAN_POINT ( 'NONE',  ( -3.000000000000000000, 0.000000000000000000, 0.000000000000000000 ) ) ;
#89 = PRODUCT_DEFINITION_FORMATION_WITH_SPECIFIED_SOURCE ( 'ANY', '', #143, .NOT_KNOWN. ) ;
#90 = DIRECTION ( 'NONE',  ( -1.000000000000000000, -0.000000000000000000, -0.000000000000000000 ) ) ;
#91 = ORIENTED_EDGE ( 'NONE', *, *, #16, .T. ) ;
#92 = CARTESIAN_POINT ( 'NONE',  ( -3.000000000000000888, 12.69999999999999929, 0.000000000000000000 ) ) ;
#93 = CALENDAR_DATE ( 2020, 22, 12 ) ;
#94 = PRODUCT_RELATED_PRODUCT_CATEGORY ( 'detail', '', ( #143 ) ) ;
#95 = AXIS2_PLACEMENT_3D ( 'NONE', #77, #38, #63 ) ;
#96 = PRODUCT_DEFINITION ( 'UNKNOWN', '', #89, #76 ) ;
#97 = AXIS2_PLACEMENT_3D ( 'NONE', #103, #90, #147 ) ;
#98 = ADVANCED_FACE ( 'NONE', ( #162 ), #78, .T. ) ;
#99 = AXIS2_PLACEMENT_3D ( 'NONE', #121, #21, #32 ) ;
#100 = CC_DESIGN_APPROVAL ( #159, ( #175 ) ) ;
#101 = CARTESIAN_POINT ( 'NONE',  ( -3.000000000000000000, 1.836970198721029589E-15, -15.00000000000000000 ) ) ;
#102 = DIRECTION ( 'NONE',  ( -1.000000000000000000, -0.000000000000000000, -0.000000000000000000 ) ) ;
#103 = CARTESIAN_POINT ( 'NONE',  ( 3.000000000000000000, 0.000000000000000000, 0.000000000000000000 ) ) ;
#104 = ORIENTED_EDGE ( 'NONE', *, *, #145, .F. ) ;
#105 = FACE_OUTER_BOUND ( 'NONE', #132, .T. ) ;
#106 = PERSON_AND_ORGANIZATION_ROLE ( 'design_owner' ) ;
#107 = AXIS2_PLACEMENT_3D ( 'NONE', #92, #3, #41 ) ;
#108 = AXIS2_PLACEMENT_3D ( 'NONE', #156, #57, #67 ) ;
#109 = ADVANCED_FACE ( 'NONE', ( #87 ), #72, .T. ) ;
#110 = CALENDAR_DATE ( 2020, 22, 12 ) ;
#111 = DATE_TIME_ROLE ( 'classification_date' ) ;
#112 = LOCAL_TIME ( 17, 9, 41.00000000000000000, #45 ) ;
#113 = DIRECTION ( 'NONE',  ( 0.000000000000000000, 0.000000000000000000, 1.000000000000000000 ) ) ;
#114 =( NAMED_UNIT ( * ) SI_UNIT ( $, .STERADIAN. ) SOLID_ANGLE_UNIT ( ) );
#115 = EDGE_LOOP ( 'NONE', ( #29, #42 ) ) ;
#116 = CARTESIAN_POINT ( 'NONE',  ( -3.000000000000000000, 0.000000000000000000, 15.00000000000000000 ) ) ;
#117 = CIRCLE ( 'NONE', #125, 15.00000000000000000 ) ;
#118 = CC_DESIGN_DATE_AND_TIME_ASSIGNMENT ( #60, #111, ( #175 ) ) ;
#119 = CC_DESIGN_APPROVAL ( #126, ( #89 ) ) ;
#120 =( LENGTH_UNIT ( ) NAMED_UNIT ( * ) SI_UNIT ( .MILLI., .METRE. ) );
#121 = CARTESIAN_POINT ( 'NONE',  ( 3.000000000000000888, 12.69999999999999929, 0.000000000000000000 ) ) ;
#122 = PERSON_AND_ORGANIZATION ( #85, #28 ) ;
#123 = SECURITY_CLASSIFICATION_LEVEL ( 'unclassified' ) ;
#124 = PERSON_AND_ORGANIZATION ( #85, #28 ) ;
#125 = AXIS2_PLACEMENT_3D ( 'NONE', #88, #148, #5 ) ;
#126 = APPROVAL ( #83, 'UNSPECIFIED' ) ;
#127 = CIRCLE ( 'NONE', #140, 15.00000000000000000 ) ;
#128 = EDGE_CURVE ( 'NONE', #6, #86, #117, .T. ) ;
#129 = CARTESIAN_POINT ( 'NONE',  ( -1.614212418857619014, 0.000000000000000000, 0.000000000000000000 ) ) ;
#130 = MANIFOLD_SOLID_BREP ( 'Ðý×', #35 ) ;
#131 = DIRECTION ( 'NONE',  ( -1.000000000000000000, -0.000000000000000000, -0.000000000000000000 ) ) ;
#132 = EDGE_LOOP ( 'NONE', ( #150, #18 ) ) ;
#133 = CC_DESIGN_PERSON_AND_ORGANIZATION_ASSIGNMENT ( #124, #154, ( #89 ) ) ;
#134 = EDGE_LOOP ( 'NONE', ( #166, #31, #1, #66 ) ) ;
#135 = CC_DESIGN_APPROVAL ( #49, ( #96 ) ) ;
#136 = PERSON_AND_ORGANIZATION_ROLE ( 'classification_officer' ) ;
#137 = DATE_AND_TIME ( #93, #112 ) ;
#138 = PERSON_AND_ORGANIZATION ( #85, #28 ) ;
#139 = COORDINATED_UNIVERSAL_TIME_OFFSET ( 8, 0, .AHEAD. ) ;
#140 = AXIS2_PLACEMENT_3D ( 'NONE', #17, #167, #9 ) ;
#141 =( GEOMETRIC_REPRESENTATION_CONTEXT ( 3 ) GLOBAL_UNCERTAINTY_ASSIGNED_CONTEXT ( ( #161 ) ) GLOBAL_UNIT_ASSIGNED_CONTEXT ( ( #120, #15, #114 ) ) REPRESENTATION_CONTEXT ( 'NONE', 'WORKASPACE' ) );
#142 = EDGE_CURVE ( 'NONE', #86, #6, #157, .T. ) ;
#143 = PRODUCT ( 'Q-AZHWP-25.4-1064-M', 'Q-AZHWP-25.4-1064-M', '', ( #34 ) ) ;
#144 = EDGE_LOOP ( 'NONE', ( #65, #91, #64, #104 ) ) ;
#145 = EDGE_CURVE ( 'NONE', #19, #86, #163, .T. ) ;
#146 = CARTESIAN_POINT ( 'NONE',  ( 3.000000000000000000, 1.836970198721029589E-15, -15.00000000000000000 ) ) ;
#147 = DIRECTION ( 'NONE',  ( 0.000000000000000000, 0.000000000000000000, 1.000000000000000000 ) ) ;
#148 = DIRECTION ( 'NONE',  ( -1.000000000000000000, -0.000000000000000000, -0.000000000000000000 ) ) ;
#149 = FACE_OUTER_BOUND ( 'NONE', #115, .T. ) ;
#150 = ORIENTED_EDGE ( 'NONE', *, *, #27, .F. ) ;
#151 = APPROVAL_DATE_TIME ( #24, #49 ) ;
#152 = DATE_AND_TIME ( #23, #80 ) ;
#153 = AXIS2_PLACEMENT_3D ( 'NONE', #129, #102, #8 ) ;
#154 = PERSON_AND_ORGANIZATION_ROLE ( 'design_supplier' ) ;
#155 = CC_DESIGN_PERSON_AND_ORGANIZATION_ASSIGNMENT ( #70, #136, ( #175 ) ) ;
#156 = CARTESIAN_POINT ( 'NONE',  ( 0.000000000000000000, 0.000000000000000000, 0.000000000000000000 ) ) ;
#157 = CIRCLE ( 'NONE', #79, 15.00000000000000000 ) ;
#158 = VECTOR ( 'NONE', #131, 1000.000000000000000 ) ;
#159 = APPROVAL ( #84, 'UNSPECIFIED' ) ;
#160 = APPROVAL_PERSON_ORGANIZATION ( #138, #159, #36 ) ;
#161 = UNCERTAINTY_MEASURE_WITH_UNIT (LENGTH_MEASURE( 1.000000000000000082E-05 ), #120, 'distance_accuracy_value', 'NONE');
#162 = FACE_OUTER_BOUND ( 'NONE', #144, .T. ) ;
#163 = LINE ( 'NONE', #40, #158 ) ;
#164 = CC_DESIGN_DATE_AND_TIME_ASSIGNMENT ( #82, #48, ( #96 ) ) ;
#165 = CARTESIAN_POINT ( 'NONE',  ( 3.000000000000000000, 0.000000000000000000, 15.00000000000000000 ) ) ;
#166 = ORIENTED_EDGE ( 'NONE', *, *, #16, .F. ) ;
#167 = DIRECTION ( 'NONE',  ( -1.000000000000000000, -0.000000000000000000, -0.000000000000000000 ) ) ;
#168 = PERSON_AND_ORGANIZATION_ROLE ( 'creator' ) ;
#169 = CIRCLE ( 'NONE', #97, 15.00000000000000000 ) ;
#170 = APPROVAL_ROLE ( '' ) ;
#171 = SHAPE_DEFINITION_REPRESENTATION ( #62, #39 ) ;
#172 = EDGE_CURVE ( 'NONE', #7, #19, #169, .T. ) ;
#173 = APPROVAL_ROLE ( '' ) ;
#174 = PERSON_AND_ORGANIZATION ( #85, #28 ) ;
#175 = SECURITY_CLASSIFICATION ( '', '', #123 ) ;
ENDSEC;
END-ISO-10303-21;
